Ніколи

Сл: Святослав Вакарчук  
Муз: Святослав Вакарчук
Вик: Океан Ельзи
      C         C         C        G
1|-----0---|-----0---|-----0---|-----3---|
2|-------1-|-------1-|-------1-|-------3-|
3|---0-----|---0-----|---0-----|---0-----|  x2
4|---------|---------|---------|---------|
5|-3-------|-3-------|-3-------|---------|
6|---------|---------|---------|-3-------|

G       C G         C  	
Я прочитав твої листи
        F(II)    C          G    G       C
І не повірю, що десь на Землі є ще одна ти.

bass:

5|---3-2-1---|
6|-3---------|

   І не повірю, що десь на Землі
5|-7-5-----88-8-77-7-55-|
6|-----8----------------|

 є ще одна ти.
5|---7-5-3-3---|
6|-3-----------|


   F(II)
1|-----1---|
2|-------1-|
3|---2-----|
4|---------|
5|---------|
6|-1-------|

Я прочитав твої листи
І не повірю,що десь на Землі є ще одна ти.    | (2)
Я написав тисячі слів,
Але словами не можу сказати все те, що хотів. | (2)

Приспів:
Я не забуду тебе ніколи, ніколи
Не забуду тебе ніколи, ніколи
З ким не була б і де!

Вільна любов, ночі на ти,
Я пам'ятаю,твій запах шукаю, не можу знайти   | (2)
Хочеш- пиши або дзвони,
Може й не буде такого, як було,та все ж подзвони | (2)


На головну сторінку...
© Українські Пісні, 2003-2021