, !

:   
: Jimmi Hendrix
:  Club
C         G   D              A
   , !    
           E
     ?

, !    
 -.
, !    
  ?
, !    
  ?
, !   .
   !
, !  -   .
   ?
, !  ,  ,
  , !
, !    ?
 , !
, ! ,  !
  , ?
, !  .
  , !
, !   .
 , ?
, !  .
 , .
, ! ,  !
  , ?


*
 :
Guitar (basic theme tabs by bohdanko (bohdanko@epost.com.ua))
                  C                      G
E||------------|----------------------|----------------------|
B||------------|------------1---------|-----------------0----|
G||------------|-----------------0----|------------0---------|
D||------------|-------2--------------|-------0--------------|
A||--0----2----|--3-------------------|----------------------|
E||------------|----------------------|--3-------------------|


  D                      A                      E
-----------------2----|----------------------|----------------------|
------------3---------|-----------------2----|----------------------|
-------2--------------|------------2---------|--1------1-x-----1----|
--0-------------------|-------2--------------|--2------2-x-----2----|
----------------------|--0-------------------|--2------2-2-----2----|
----------------------|----------------------|--0------0-0-----0----|


  E                    E                      E            E
--------------------|----------------------|-----------||----------------------|
--------------------|----------------------|-----------||----------------------|
--------------------|--1------1-x-----1----|----------*||--1------1-x-----1----|
--------------------|--2------2-x-----2----|----------*||--2------2-x-----2----|
--------------------|--2------2-2-----2----|-----------||--2------2-2-----2----|
----------3----3----|--0------0-0-----0----|-----------||--0------0-0-----0----|


  E                     E                      E
---------------------|----------------------|----------||
---------------------|----------------------|----------||
---------------------|--1------1-x-----1----|----------||
---------------------|--2------2-x-----2----|----------||
---------------------|--2------2-2-----2----|----------||
----------3h-0h-3~---|--0------0-0-----0----|----------||


...
© ϳ, 2003-2021