Іди тусуйся

Сл: Олександр Положинський  
Муз: Тартак
Вик: Тартак
      Q    Q    E  E  E  E     E  E  E  E  E  E  E  E
E||-------------------------|--------------------------|
B||-------------------------|--------------------------|
G||*------------x--5-----3--|--L--3--3--3--L--3--3--3--|
D||*--5----5----x--5-----3--|--L--3--3--3--L--3--3--3--|
A||---5----5----x--3--x--1--|--L--1--1--1--L--1--1--1--|
E||---3----3----------------|--------------------------|


  Q    Q    E  E  E  E     E  E  E  E  E  E  E  E
------------------------|---------------------------||-----|-----||
------------------------|---------------------------||-----|-----||
--5----5----x--5-----3--|--L--3--3--2--L-----------*||-----|-----||
--5----5----x--5-----3--|--L--3--3--2--L--3--3--3--*||-----|-----||
--3----3----x--3--x--1--|--L--1--1--0--L--3--3--3---||-----|-----||
------------------------|-----------------1--1--1---||-----|-----||


Довжини нот:
---------------
W - ціла
E - восьма

Позначення:
----------------
L - Нехай звучить
x - заглушення

Сумно було дивитися на аккорди, що надіслали інші автори...

-----------------------------------------------------------

День починається з того,
Чим учора закінчився вечір.
А я вже не хочу нічого,
Крім того, щоб ти спакувала речі.
Скарги свої та поради
Залиш при собі - я ж до тебе не лізу!
Креми, парфуми, пудри, помади
Поскладай у валізу...

І йди тусуйся!
Мені остогидло
Чути твоє постійне ниття!
Іди тусуйся!
Мені ти набридла!
Я хочу пожити нормальним життям!
Іди тусуйся!

А ти починаєш розмови
Про все, що до цього було між нами.
А я до розмов не готовий -
Я просто хочу тебе... відіслати до мами!
Ти краще, ніж сльози пускати,
Манатки - у торбу, а торбу - на плечі!
Ключ повертаєш, виходиш із хати -
І арівідерчі!

Іди тусуйся!
Мені остогидло
Чути твоє постійне ниття!
Іди тусуйся!
Мені ти набридла!
Я хочу пожити нормальним життям!
Іди тусуйся!





Спокій прийшов, тиша настала,
Та в серці моєму шкребуться коти.
Я відчуваю - мені цього мало...
Ліг на канапі - тупо втикаю...
Футбол не дивлюсь, газет не читаю -
Просто чекаю... Я просто чекаю
Точно таку, як ти!

А ти тусуйся!
Мені остогидло
Чути твоє постійне ниття!
А ти тусуйся!
Мені ти набридла!
Я хочу пожити нормальним життям!
Іди тусуйся!

Підбір акордів: X3M-STYLE

На головну сторінку...
© Українські Пісні, 2003-2021