Все минуло

Сл: Мар'ян Гаденко, Михайло Шевченко  
Муз: Мар'ян Гаденко
Вик: Віктор Павлік
Intro

e----------------0-----0-1---------------------0----0-1--------
h------------0----------------3-------------0--------------3---
g--------1-------------------------------1---------------------
d-------------------------------------2------------------------
a----0---------------------------------------------------------
e--------------------------------------------------------------

----------0----0-1---------------------0-----------1-----
--------0--------------3--------------0------------2-----
------1------------------------------1-------------2-----
-----------------------------------2---------------------
0--------------------------------------------------------
---------------------------------------------------------
 Все минуло рідна,                 все минуло...



Am*         A            Dm Dm
Все минуло рідна, все минуло,
      F                Am   E
Не жалію я за тим, що було,
      Am    Am             Dm Dm
Бо коханню меж в житті не має,
         F     E                Am  E    |2x
Той хто вірно любить, той страждає       |

refr.
      Am      Am          Dm  Dm
А життя так просто не проходить,
      G             G     E  E
Воно б'є мов  джерело землі,
         Am   Am          Dm   Dm
З бистрини несе моря всі води,
      F         E          Am E
Прохолодою вкрива тепло душі

Розійшлися дві стежини долі,
Бо любов переросла в неволю,
Залишились туга і надія            |2x
І той біль, що в серці я посіяв    |

refr.

Не побачимо ми більше зранку,
Як зірниці мріють на світанку,
На чужому горі без розплати,  |2x
Свого щастя нам не збудувати  |

refr.


*Акорди граються перебором, наприклад
для Am можемо грати так:

e--------------0----------------------------
h--------------0----------------------------
g----------1------1-------------------------
d------------------------------------------
a----0-------------------------------------
e----------------------------------------

Аудіофайли:
Аудіозапис з радіо (mp3, 128 kbps) (MP3 , 3,011kb) Виконує: Віктор Павлік
Фонограма-мінус (mp3, 80 kbps) (MP3 , 2,703kb)

Підбір акордів: basilboli

На головну сторінку...
© Українські Пісні, 2003-2013