Ще не вмерла Україна

Сл: Павло Чубинський, С. Данилович  
Муз: Михайло Вербицький
Вик: Не журись!
Національний Гімн України (повна версія):

Ще не вмерла Україна, і слава, і воля,
Ще нам, браття молодії, усміхнеться доля.
Згинуть наші вороженьки, як роса на сонці,
Запануєм і ми, браття, у своїй сторонці.

Приспів:
Душу, тіло ми положим за нашу свободу.
І покажем, що ми, браття, козацького роду.

Станем, браття, в бій кровавий від Сяну до Дону
В ріднім краю панувати не дамо нікому;
Чорне море ще всміхнеться, дід Дніпро зрадіє,
Ще у нашій Україні доленька наспіє.

Приспів.

А завзяття, праця щира свого ще докаже,
Ще ся волі в Україні піснь гучна розляже,
За Карпати відоб'ється, згомонить степами,
України слава стане поміж народами.

Приспів.

-----
* Державний Гімн України (офіційна версія):

"Ще не вмерла України** і слава, і воля,
Ще нам, браття молодії, усміхнеться доля.
Згинуть наші воріженьки, як роса на сонці.
Запануєм і ми, браття, у своїй сторонці.

Приспів:
Душу й тіло ми положим за нашу свободу,
І покажем, що ми, браття, козацького роду".

-----
Акорди:

 C           G   E7   Am    E     Am G
Ще не вмерла Україна, і слава, і во-  ля,
 C              G   E   Am    E      Am
Ще нам, браття молодії, усміхнеться доля.
  E           Am  E      Am    G     C
Згинуть наші вороженьки, як роса на сонці,
 E       Am      E     Am   E      Am
Запануєм і ми, браття, у своїй сторонці.

Приспів:
 C          G    E     Am   G     C
Душу, тіло ми положим за нашу свободу.
C           G       E      Am    E    Am
І покажем, що ми, браття, козацького роду.

-----
Табулатура:

 C           G     E7 Am  E
-0-0-0---0-1-3-1-0------0---0-------------
-1-----3----(3)----3--1---0---------0-1-3-
-0-----------0--------2---1---2-1-2-------
-2-----------0----------------------------
(3)---------(2)-------0---2---0---------0-
------------(3)---------------------------

 C           G     E7 Am  E    Am
-0-0-0---0-1-3-1-0--------0---------------
-1-----3----(3)----3--1-------------------
-0-----------0----------0---1--2--2-------
-2-----------0----------------------------
(3)---------(2)-------0---2----0--0-------
------------(3)---------------------------

 E           Am      E   Am  G     C
-----0-----------------------3-3-1-0-0----
-0-0---3-1-0-1-0-1---0-0-1-1-3-----1-1----
-1-----------2-----2-1---2---0-----0-0----
-2-----------2-------2---2---0-----2-2----
-2-----------0-------2---0---2-----3-3----
-----------------------------3------------

 E           Am      E   Am  E   Am
-----0---------------------0-0-0---------
-0-0---3-1-0-1-0-1---0-0-1---0---1-1-----
-1-----------2-----2-1---2---1---2-2-----
-2-----------2-------2---2---2---2-2-----
-2-----------0-------2---0---2---0-0-----
-----------------------------------------

Приспів:
Cadd9    C   G           Am  G     C
-3-----2-3-0-3---3-1-0---------3-1-0-------0-1-
-1---1-------3-3-------3-1-1-3-----1-3-1-3-----
-0-0---------------------2---------------------
-----------------------------------------------
-3-----------------------0-0-------3-----------
-------------3-3-------------3-----------------

Cadd9    C   G           Am  E    Am(5)
-3-----2-3-0-3---3-1-0-----0---0---5---5-------
-1---1-------3-3-------3-1---0-----5---5-------
-0-0---------------------2---------5---5-------
-----------------------------------7---7-------
-3-----------------------0---2-----7---7-------
-------------3-3-----------0-------5---5-------

Аудіофайли:


На головну сторінку...
© Українські Пісні, 2003-2021