Не питай

Сл: Святослав Вакарчук  
Муз: Святослав Вакарчук
Вик: Океан Ельзи
   D#                  B               C                      Cm 
e|---------3---------------1---1---------------0----------------------3--------...
B|-----4---4---4-----------3-------3-------1-------1^0------------4-------4----...
G|-------3---3---3^0-----3---3---3---3-------0---0-----0--------5---5---5---5--...
D|---5-----------------3-----------------2----------------0---5----------------...
A|-6-----------------------------------3---------------------------------------...
E|-----------------------------------------------------------------------------...


перехід на новий куплет з Cm на D#
				    Сm      D#
				   .-----------.
				   .-----------.
				   .-----------.
				   .-----------.
				   .-3--5----6-.
				   .-----------.

Приспів грається боєм по: Gm Dm# D# B F Gm... 
кінецьприспіва: Gm Dm# D# B F C Cm

------------------------------------------------------------

intro: D#, B, C, Cm (2 рази)

 D#            B   
Не питай, де я був 
                   C
Коли тобі було так солодко
      Сm                   D#
Де я був, коли тебе таку незайману 
    B                       C
Підіймали вище неба тільки сам на сам
 Cm
Хіба не там...

приспів:
             Gm Dm# D#
Просто мені так хочеться
B      F        Gm
бути там де і ти
Dm# D#         B        F         Gm
так хочеться жити в тебе в полоні 
Dm# D#  B    F              C
і бачити, як тікають від мене сни 
Cm
В твої долоні...

Не питай чи бувало так
Що я не міг заснути сам 
я стояв і лиш дивився як ховає дощ
Все що сказано тобою, всі твої сліди
І так завжди ...

============================================================
[made be Ю.Л.]

Аудіофайли:

Підбір акордів: Ю.Л.

На головну сторінку...
© Українські Пісні, 2003-2021