Голос твій

Сл: Святослав Вакарчук  
Муз: Святослав Вакарчук
Вик: Океан Ельзи
Intro: 
      Am                   Dm  - 2 раза 
E||-----------------|------------------|----7-------------------|| 
B||------------1----|------------6-----|--------------6---------|| 
G||-------2---------|-------7----------|-7-------7---------7----|| 
D||--2--------------|--7---------------|------------------------|| 

Am 
Чи коли хто-небудь бачив 
Dm           Dm/F 
З неба як впаде зоря? 
Я подумав: небо плаче, 
А вона його сльоза, 
Am          Am/F 
Ти підеш на захід сонця, 
Dm          Dm/F 
Ти побачиш ночі тінь. 
І під небом - тим, що плаче - 
Dm   E         Am   Am/C 
Я почую голос твій 

Dm   E         Am  Am/С 
Я почую голос твій 
Dm  E    Am  C      F 
Я-а-а почую голос твій 
Dm E 
Я--а..... 

Guitar solo: 

E||----------10-----8---7-------------------12-----11----10-----| 
B||------10----------------------------10--------------------10-| 
G||--9-----------------------9-----10---------------------------| 

E||----------10-----8---7------------------7-----|-----------4--|| 
B||------10---------------------------5----------|-----3(5)-----|| 
G||--9-----------------------9---7---------------|-4------------|| 

Залишаються на небі 
Ці сльозинки, і завжди 
Будуть люди їх шукати, 
Як шукали я і ти. 
І багато з них знайдеться - 
Серед них буде й моя. 
Тільки небо далі плаче, 
Впаде ще одна сльоза - 
І я почую голос твій. 

Я почую голос твій 

Solo piano: 

E||--10--------------|--12----------------|--10--------------| 
B||--------10----9---|--------13----------|--------10---9----| 
G||------------------|--------------14----|------------------| 

--12---------------------|-10-------------|--12----------13-|| 
-------13----------------|------10---9----|--------13---13--|| 
-------------14----------|----------------|------------14---|| 
-------------------14----|----------------|-----------------|| 


На головну сторінку...
© Українські Пісні, 2003-2021