:   
: 
: 
:   F7M  F7M

           F7M          C*            D* D** D*
 ,    ,     ,  ***
Am/F*        Em/5-       A             D
     ,   ,    ,
Fm                         C  F7M  F7M
       .

 ,  ,     ,  ***
      ,   ,
  '  .

:
   C F7M C* D
   Am/F* Em/5- A D
   Fm C F7M  F7M

 ,  ,     , ***
     ,   
Fm                      C G7M Am
       .
            D
...  
F7M                     C
       .


*****
  䳿  :

Lead.guitar ( bohdanko[c]pisni.org.ua)

E||----------------------|-----------------------|----------------------|
H||------------1---------|-------------1---------|------------1---------|
G||-----------------0----|--------0---------0----|-----------------0----|
D||-------2--------------|--2--3-----------------|-------2--------------|
A||--3-------------------|-----------------------|--3-------------------|
E||----------------------|-----------------------|----------------------|

-----------------------|----------------------|--0----------------|
-------------1---------|------------1---------|-------------------|
--------0---------0----|-----------------0----|-------------------|
--2--3-----------------|-------2--------------|-------------------|
-----------------------|--3-------------------|-------------------|
-----------------------|----------------------|-------------------|

---------------------|------------3----------|------------2h-5--2h-5--|
------------1--------|-----------------1/-3--|-------3----------------|
-------2-------------|-------0---------------|------------------------|
--3------------------|--2--------------------|--4---------------------|
---------------------|-----------------------|------------------------|
---------------------|-----------------------|------------------------|

--2----------------|------------5---------|------------3--------|
-------------------|-----------------5----|---------------------|
-------------------|-------5--------------|-------3-------------|
-------------------|--3-------------------|--2------------------|
-------------------|----------------------|---------------------|
-------------------|----------------------|---------------------|

--0---------3---------|--5----------------|-----------------2----|
-------2---------5----|-------------------|------------3---------|
-------2---------6----|-------------------|-------2--------------|
----------------------|-------------------|--0-------------------|
--0-------------------|-------------------|----------------------|
----------------------|-------------------|----------------------|

-----------------------|-----------------1----|------------------||
-----------------------|------------1---------|------------------||
------0-2h0------------|-------1--------------|------------------||
-------------4----0----|--3-------------------|------------------||
-----------------------|----------------------|------------------||
-----------------------|----------------------|------------------||

:

ϳ : bohdanko

...
© ϳ, 2003-2021