:   
: 
: ,
:
Tab (: smash )
     Gm/E                      A7
E||-------------------3-----|-------------------0-----|
B||-----------3----------3--|-----------2----------2--|
G||--------0-------0--------|--------0-------0--------|
D||-----0-------------------|-----2-------------------|
A||--1----------------------|--0----------------------|
E||-------------------------|-------------------------|


  Dm          Cadd9          Gm/E
--------1-----------3-----|-------------------3-----|
-----------3-----------3--|-----------3----------3--|
-----2-----------0--------|--------0-------0--------|
--0-----------------------|-----0-------------------|
--------------3-----------|--1----------------------|
--------------------------|-------------------------|


  A7sus4                    A7
-------------------------|------------------0-----||
-----------3----------3--|--2---------2h-3-----2--||
--------0----------0-----|------------------------||
-----2----------2--------|------------------------||
--0----------------------|---------0--------------||
-------------------------|------------------------||


         Gm/E       A7
     
 Dm    Cadd9   Gm/E
     
   Gm/E             A7
I        
 Dm    Cadd9   Gm/E             A7sus4 A7
      

       
     
I     
I    ...

:
  Gm/E      A7
               |
   Dm      Cadd9  Gm/E    | (4)
      |


A7sus4 A7

:
Gm/E A7 Dm Cadd9 Gm/E (4)
A7sus4 A7

     
   "    "
   
I     

I  , , 
      
     
I      

.
.

:
              |
     | (3)
  Gm/E      A7  Dm
  

:

ϳ : smash, bohdanko

...
© ϳ, 2003-2021